ISO-10303-21;
HEADER;
/* Generated by software containing ST-Developer
 * from STEP Tools, Inc. (www.steptools.com) 
 */
/* OPTION: using custom renumber hook */

FILE_DESCRIPTION(
/* description */ ('STEP AP242',
'CAx-IF Rec.Pracs.---Representation and Presentation of Product Manufa
cturing Information (PMI)---4.0---2014-10-13',
'CAx-IF Rec.Pracs.---3D Tessellated Geometry---0.4---2014-09-14','2;1'),

/* implementation_level */ '2;1');

FILE_NAME(
/* name */ '67646c434adeaf7533214e47',
/* time_stamp */ '2024-12-19T18:56:04Z',
/* author */ (''),
/* organization */ (''),
/* preprocessor_version */ 'ST-DEVELOPER v20',
/* originating_system */ 'ONSHAPE BY PTC INC, 1.191',
/* authorisation */ '  ');

FILE_SCHEMA (('AP242_MANAGED_MODEL_BASED_3D_ENGINEERING_MIM_LF { 1 0 10303 442 1 1 4 }'));
ENDSEC;

DATA;
#10=SHAPE_REPRESENTATION_RELATIONSHIP('','',#451,#11);
#11=ADVANCED_BREP_SHAPE_REPRESENTATION('',(#449),#759);
#12=CYLINDRICAL_SURFACE('',#474,0.007);
#13=CYLINDRICAL_SURFACE('',#476,0.0025);
#14=CYLINDRICAL_SURFACE('',#478,0.007);
#15=CYLINDRICAL_SURFACE('',#480,0.0025);
#16=CYLINDRICAL_SURFACE('',#486,0.007);
#17=CYLINDRICAL_SURFACE('',#488,0.007);
#18=CYLINDRICAL_SURFACE('',#490,0.0025);
#19=CYLINDRICAL_SURFACE('',#492,0.0025);
#20=CYLINDRICAL_SURFACE('',#497,0.00385);
#21=CYLINDRICAL_SURFACE('',#498,0.002);
#22=CYLINDRICAL_SURFACE('',#499,0.002);
#23=CYLINDRICAL_SURFACE('',#500,0.002);
#24=CYLINDRICAL_SURFACE('',#501,0.002);
#25=LINE('',#638,#57);
#26=LINE('',#641,#58);
#27=LINE('',#643,#59);
#28=LINE('',#649,#60);
#29=LINE('',#652,#61);
#30=LINE('',#654,#62);
#31=LINE('',#660,#63);
#32=LINE('',#665,#64);
#33=LINE('',#667,#65);
#34=LINE('',#669,#66);
#35=LINE('',#671,#67);
#36=LINE('',#674,#68);
#37=LINE('',#678,#69);
#38=LINE('',#680,#70);
#39=LINE('',#682,#71);
#40=LINE('',#684,#72);
#41=LINE('',#689,#73);
#42=LINE('',#694,#74);
#43=LINE('',#697,#75);
#44=LINE('',#699,#76);
#45=LINE('',#701,#77);
#46=LINE('',#703,#78);
#47=LINE('',#707,#79);
#48=LINE('',#710,#80);
#49=LINE('',#712,#81);
#50=LINE('',#714,#82);
#51=LINE('',#718,#83);
#52=LINE('',#734,#84);
#53=LINE('',#748,#85);
#54=LINE('',#749,#86);
#55=LINE('',#751,#87);
#56=LINE('',#752,#88);
#57=VECTOR('',#508,1.);
#58=VECTOR('',#509,1.);
#59=VECTOR('',#510,1.);
#60=VECTOR('',#517,1.);
#61=VECTOR('',#518,1.);
#62=VECTOR('',#519,1.);
#63=VECTOR('',#526,1.);
#64=VECTOR('',#529,1.);
#65=VECTOR('',#530,1.);
#66=VECTOR('',#531,1.);
#67=VECTOR('',#532,1.);
#68=VECTOR('',#535,1.);
#69=VECTOR('',#538,1.);
#70=VECTOR('',#539,1.);
#71=VECTOR('',#540,1.);
#72=VECTOR('',#541,1.);
#73=VECTOR('',#548,1.);
#74=VECTOR('',#551,1.);
#75=VECTOR('',#554,1.);
#76=VECTOR('',#555,1.);
#77=VECTOR('',#556,1.);
#78=VECTOR('',#557,1.);
#79=VECTOR('',#560,1.);
#80=VECTOR('',#563,1.);
#81=VECTOR('',#564,1.);
#82=VECTOR('',#565,1.);
#83=VECTOR('',#570,1.);
#84=VECTOR('',#595,1.);
#85=VECTOR('',#618,1.);
#86=VECTOR('',#619,1.);
#87=VECTOR('',#622,1.);
#88=VECTOR('',#623,1.);
#89=ORIENTED_EDGE('',*,*,#205,.T.);
#90=ORIENTED_EDGE('',*,*,#206,.T.);
#91=ORIENTED_EDGE('',*,*,#207,.T.);
#92=ORIENTED_EDGE('',*,*,#208,.F.);
#93=ORIENTED_EDGE('',*,*,#209,.T.);
#94=ORIENTED_EDGE('',*,*,#210,.T.);
#95=ORIENTED_EDGE('',*,*,#211,.F.);
#96=ORIENTED_EDGE('',*,*,#212,.T.);
#97=ORIENTED_EDGE('',*,*,#213,.F.);
#98=ORIENTED_EDGE('',*,*,#214,.F.);
#99=ORIENTED_EDGE('',*,*,#215,.F.);
#100=ORIENTED_EDGE('',*,*,#216,.F.);
#101=ORIENTED_EDGE('',*,*,#217,.T.);
#102=ORIENTED_EDGE('',*,*,#218,.T.);
#103=ORIENTED_EDGE('',*,*,#219,.F.);
#104=ORIENTED_EDGE('',*,*,#220,.F.);
#105=ORIENTED_EDGE('',*,*,#221,.T.);
#106=ORIENTED_EDGE('',*,*,#213,.T.);
#107=ORIENTED_EDGE('',*,*,#222,.T.);
#108=ORIENTED_EDGE('',*,*,#223,.T.);
#109=ORIENTED_EDGE('',*,*,#224,.T.);
#110=ORIENTED_EDGE('',*,*,#225,.T.);
#111=ORIENTED_EDGE('',*,*,#226,.F.);
#112=ORIENTED_EDGE('',*,*,#227,.F.);
#113=ORIENTED_EDGE('',*,*,#228,.T.);
#114=ORIENTED_EDGE('',*,*,#208,.T.);
#115=ORIENTED_EDGE('',*,*,#229,.T.);
#116=ORIENTED_EDGE('',*,*,#230,.F.);
#117=ORIENTED_EDGE('',*,*,#231,.F.);
#118=ORIENTED_EDGE('',*,*,#232,.T.);
#119=ORIENTED_EDGE('',*,*,#233,.F.);
#120=ORIENTED_EDGE('',*,*,#234,.T.);
#121=ORIENTED_EDGE('',*,*,#211,.T.);
#122=ORIENTED_EDGE('',*,*,#235,.F.);
#123=ORIENTED_EDGE('',*,*,#236,.F.);
#124=ORIENTED_EDGE('',*,*,#237,.T.);
#125=ORIENTED_EDGE('',*,*,#238,.T.);
#126=ORIENTED_EDGE('',*,*,#239,.T.);
#127=ORIENTED_EDGE('',*,*,#240,.T.);
#128=ORIENTED_EDGE('',*,*,#241,.T.);
#129=ORIENTED_EDGE('',*,*,#206,.F.);
#130=ORIENTED_EDGE('',*,*,#242,.F.);
#131=ORIENTED_EDGE('',*,*,#243,.T.);
#132=ORIENTED_EDGE('',*,*,#244,.T.);
#133=ORIENTED_EDGE('',*,*,#245,.T.);
#134=ORIENTED_EDGE('',*,*,#225,.F.);
#135=ORIENTED_EDGE('',*,*,#246,.T.);
#136=ORIENTED_EDGE('',*,*,#231,.T.);
#137=ORIENTED_EDGE('',*,*,#247,.T.);
#138=ORIENTED_EDGE('',*,*,#209,.F.);
#139=ORIENTED_EDGE('',*,*,#228,.F.);
#140=ORIENTED_EDGE('',*,*,#248,.T.);
#141=ORIENTED_EDGE('',*,*,#242,.T.);
#142=ORIENTED_EDGE('',*,*,#249,.T.);
#143=ORIENTED_EDGE('',*,*,#245,.F.);
#144=ORIENTED_EDGE('',*,*,#247,.F.);
#145=ORIENTED_EDGE('',*,*,#244,.F.);
#146=ORIENTED_EDGE('',*,*,#250,.T.);
#147=ORIENTED_EDGE('',*,*,#226,.T.);
#148=ORIENTED_EDGE('',*,*,#251,.T.);
#149=ORIENTED_EDGE('',*,*,#205,.F.);
#150=ORIENTED_EDGE('',*,*,#243,.F.);
#151=ORIENTED_EDGE('',*,*,#248,.F.);
#152=ORIENTED_EDGE('',*,*,#227,.T.);
#153=ORIENTED_EDGE('',*,*,#250,.F.);
#154=ORIENTED_EDGE('',*,*,#249,.F.);
#155=ORIENTED_EDGE('',*,*,#251,.F.);
#156=ORIENTED_EDGE('',*,*,#252,.T.);
#157=ORIENTED_EDGE('',*,*,#218,.F.);
#158=ORIENTED_EDGE('',*,*,#253,.T.);
#159=ORIENTED_EDGE('',*,*,#238,.F.);
#160=ORIENTED_EDGE('',*,*,#254,.F.);
#161=ORIENTED_EDGE('',*,*,#214,.T.);
#162=ORIENTED_EDGE('',*,*,#221,.F.);
#163=ORIENTED_EDGE('',*,*,#255,.F.);
#164=ORIENTED_EDGE('',*,*,#235,.T.);
#165=ORIENTED_EDGE('',*,*,#254,.T.);
#166=ORIENTED_EDGE('',*,*,#237,.F.);
#167=ORIENTED_EDGE('',*,*,#256,.F.);
#168=ORIENTED_EDGE('',*,*,#219,.T.);
#169=ORIENTED_EDGE('',*,*,#257,.T.);
#170=ORIENTED_EDGE('',*,*,#210,.F.);
#171=ORIENTED_EDGE('',*,*,#258,.T.);
#172=ORIENTED_EDGE('',*,*,#252,.F.);
#173=ORIENTED_EDGE('',*,*,#257,.F.);
#174=ORIENTED_EDGE('',*,*,#255,.T.);
#175=ORIENTED_EDGE('',*,*,#220,.T.);
#176=ORIENTED_EDGE('',*,*,#256,.T.);
#177=ORIENTED_EDGE('',*,*,#236,.T.);
#178=ORIENTED_EDGE('',*,*,#258,.F.);
#179=ORIENTED_EDGE('',*,*,#233,.T.);
#180=ORIENTED_EDGE('',*,*,#259,.T.);
#181=ORIENTED_EDGE('',*,*,#223,.F.);
#182=ORIENTED_EDGE('',*,*,#260,.T.);
#183=ORIENTED_EDGE('',*,*,#216,.T.);
#184=ORIENTED_EDGE('',*,*,#261,.T.);
#185=ORIENTED_EDGE('',*,*,#240,.F.);
#186=ORIENTED_EDGE('',*,*,#262,.T.);
#187=ORIENTED_EDGE('',*,*,#215,.T.);
#188=ORIENTED_EDGE('',*,*,#230,.T.);
#189=ORIENTED_EDGE('',*,*,#229,.F.);
#190=ORIENTED_EDGE('',*,*,#207,.F.);
#191=ORIENTED_EDGE('',*,*,#241,.F.);
#192=ORIENTED_EDGE('',*,*,#261,.F.);
#193=ORIENTED_EDGE('',*,*,#217,.F.);
#194=ORIENTED_EDGE('',*,*,#262,.F.);
#195=ORIENTED_EDGE('',*,*,#239,.F.);
#196=ORIENTED_EDGE('',*,*,#253,.F.);
#197=ORIENTED_EDGE('',*,*,#224,.F.);
#198=ORIENTED_EDGE('',*,*,#259,.F.);
#199=ORIENTED_EDGE('',*,*,#232,.F.);
#200=ORIENTED_EDGE('',*,*,#246,.F.);
#201=ORIENTED_EDGE('',*,*,#222,.F.);
#202=ORIENTED_EDGE('',*,*,#212,.F.);
#203=ORIENTED_EDGE('',*,*,#234,.F.);
#204=ORIENTED_EDGE('',*,*,#260,.F.);
#205=EDGE_CURVE('',#263,#263,#305,.T.);
#206=EDGE_CURVE('',#264,#265,#25,.T.);
#207=EDGE_CURVE('',#265,#266,#26,.F.);
#208=EDGE_CURVE('',#267,#266,#27,.T.);
#209=EDGE_CURVE('',#267,#264,#306,.T.);
#210=EDGE_CURVE('',#268,#268,#307,.T.);
#211=EDGE_CURVE('',#269,#270,#28,.T.);
#212=EDGE_CURVE('',#269,#271,#29,.F.);
#213=EDGE_CURVE('',#272,#271,#30,.T.);
#214=EDGE_CURVE('',#270,#272,#308,.T.);
#215=EDGE_CURVE('',#273,#273,#309,.T.);
#216=EDGE_CURVE('',#274,#275,#31,.T.);
#217=EDGE_CURVE('',#274,#276,#310,.F.);
#218=EDGE_CURVE('',#276,#277,#32,.T.);
#219=EDGE_CURVE('',#278,#277,#33,.T.);
#220=EDGE_CURVE('',#279,#278,#34,.T.);
#221=EDGE_CURVE('',#279,#272,#35,.T.);
#222=EDGE_CURVE('',#271,#280,#311,.F.);
#223=EDGE_CURVE('',#280,#281,#36,.T.);
#224=EDGE_CURVE('',#281,#282,#312,.F.);
#225=EDGE_CURVE('',#282,#283,#37,.T.);
#226=EDGE_CURVE('',#284,#283,#38,.T.);
#227=EDGE_CURVE('',#285,#284,#39,.T.);
#228=EDGE_CURVE('',#285,#267,#40,.T.);
#229=EDGE_CURVE('',#266,#275,#313,.F.);
#230=EDGE_CURVE('',#286,#286,#314,.T.);
#231=EDGE_CURVE('',#287,#288,#41,.T.);
#232=EDGE_CURVE('',#287,#289,#315,.T.);
#233=EDGE_CURVE('',#290,#289,#42,.T.);
#234=EDGE_CURVE('',#290,#269,#316,.T.);
#235=EDGE_CURVE('',#291,#270,#43,.T.);
#236=EDGE_CURVE('',#292,#291,#44,.T.);
#237=EDGE_CURVE('',#292,#293,#45,.T.);
#238=EDGE_CURVE('',#293,#294,#46,.T.);
#239=EDGE_CURVE('',#294,#295,#317,.T.);
#240=EDGE_CURVE('',#295,#296,#47,.T.);
#241=EDGE_CURVE('',#296,#265,#318,.T.);
#242=EDGE_CURVE('',#297,#264,#48,.T.);
#243=EDGE_CURVE('',#297,#298,#49,.T.);
#244=EDGE_CURVE('',#298,#288,#50,.T.);
#245=EDGE_CURVE('',#299,#299,#319,.T.);
#246=EDGE_CURVE('',#282,#287,#51,.T.);
#247=EDGE_CURVE('',#288,#283,#320,.T.);
#248=EDGE_CURVE('',#285,#297,#321,.T.);
#249=EDGE_CURVE('',#300,#300,#322,.T.);
#250=EDGE_CURVE('',#298,#284,#323,.T.);
#251=EDGE_CURVE('',#301,#301,#324,.T.);
#252=EDGE_CURVE('',#302,#302,#325,.T.);
#253=EDGE_CURVE('',#276,#294,#52,.T.);
#254=EDGE_CURVE('',#277,#293,#326,.T.);
#255=EDGE_CURVE('',#291,#279,#327,.T.);
#256=EDGE_CURVE('',#278,#292,#328,.T.);
#257=EDGE_CURVE('',#303,#303,#329,.T.);
#258=EDGE_CURVE('',#304,#304,#330,.T.);
#259=EDGE_CURVE('',#289,#281,#53,.F.);
#260=EDGE_CURVE('',#280,#290,#54,.T.);
#261=EDGE_CURVE('',#275,#296,#55,.T.);
#262=EDGE_CURVE('',#295,#274,#56,.F.);
#263=VERTEX_POINT('',#637);
#264=VERTEX_POINT('',#639);
#265=VERTEX_POINT('',#640);
#266=VERTEX_POINT('',#642);
#267=VERTEX_POINT('',#644);
#268=VERTEX_POINT('',#648);
#269=VERTEX_POINT('',#650);
#270=VERTEX_POINT('',#651);
#271=VERTEX_POINT('',#653);
#272=VERTEX_POINT('',#655);
#273=VERTEX_POINT('',#659);
#274=VERTEX_POINT('',#661);
#275=VERTEX_POINT('',#662);
#276=VERTEX_POINT('',#664);
#277=VERTEX_POINT('',#666);
#278=VERTEX_POINT('',#668);
#279=VERTEX_POINT('',#670);
#280=VERTEX_POINT('',#673);
#281=VERTEX_POINT('',#675);
#282=VERTEX_POINT('',#677);
#283=VERTEX_POINT('',#679);
#284=VERTEX_POINT('',#681);
#285=VERTEX_POINT('',#683);
#286=VERTEX_POINT('',#688);
#287=VERTEX_POINT('',#690);
#288=VERTEX_POINT('',#691);
#289=VERTEX_POINT('',#693);
#290=VERTEX_POINT('',#695);
#291=VERTEX_POINT('',#698);
#292=VERTEX_POINT('',#700);
#293=VERTEX_POINT('',#702);
#294=VERTEX_POINT('',#704);
#295=VERTEX_POINT('',#706);
#296=VERTEX_POINT('',#708);
#297=VERTEX_POINT('',#711);
#298=VERTEX_POINT('',#713);
#299=VERTEX_POINT('',#717);
#300=VERTEX_POINT('',#724);
#301=VERTEX_POINT('',#729);
#302=VERTEX_POINT('',#733);
#303=VERTEX_POINT('',#742);
#304=VERTEX_POINT('',#745);
#305=CIRCLE('',#454,0.0025);
#306=CIRCLE('',#455,0.007);
#307=CIRCLE('',#457,0.0025);
#308=CIRCLE('',#458,0.007);
#309=CIRCLE('',#460,0.00385);
#310=CIRCLE('',#461,0.002);
#311=CIRCLE('',#462,0.002);
#312=CIRCLE('',#463,0.002);
#313=CIRCLE('',#464,0.002);
#314=CIRCLE('',#466,0.00385);
#315=CIRCLE('',#467,0.002);
#316=CIRCLE('',#468,0.002);
#317=CIRCLE('',#469,0.002);
#318=CIRCLE('',#470,0.002);
#319=CIRCLE('',#472,0.0025);
#320=CIRCLE('',#473,0.007);
#321=CIRCLE('',#475,0.007);
#322=CIRCLE('',#477,0.0025);
#323=CIRCLE('',#479,0.007);
#324=CIRCLE('',#481,0.0025);
#325=CIRCLE('',#484,0.0025);
#326=CIRCLE('',#485,0.007);
#327=CIRCLE('',#487,0.007);
#328=CIRCLE('',#489,0.007);
#329=CIRCLE('',#491,0.0025);
#330=CIRCLE('',#493,0.0025);
#331=EDGE_LOOP('',(#89));
#332=EDGE_LOOP('',(#90,#91,#92,#93));
#333=EDGE_LOOP('',(#94));
#334=EDGE_LOOP('',(#95,#96,#97,#98));
#335=EDGE_LOOP('',(#99));
#336=EDGE_LOOP('',(#100,#101,#102,#103,#104,#105,#106,#107,#108,#109,#110,
#111,#112,#113,#114,#115));
#337=EDGE_LOOP('',(#116));
#338=EDGE_LOOP('',(#117,#118,#119,#120,#121,#122,#123,#124,#125,#126,#127,
#128,#129,#130,#131,#132));
#339=EDGE_LOOP('',(#133));
#340=EDGE_LOOP('',(#134,#135,#136,#137));
#341=EDGE_LOOP('',(#138,#139,#140,#141));
#342=EDGE_LOOP('',(#142));
#343=EDGE_LOOP('',(#143));
#344=EDGE_LOOP('',(#144,#145,#146,#147));
#345=EDGE_LOOP('',(#148));
#346=EDGE_LOOP('',(#149));
#347=EDGE_LOOP('',(#150,#151,#152,#153));
#348=EDGE_LOOP('',(#154));
#349=EDGE_LOOP('',(#155));
#350=EDGE_LOOP('',(#156));
#351=EDGE_LOOP('',(#157,#158,#159,#160));
#352=EDGE_LOOP('',(#161,#162,#163,#164));
#353=EDGE_LOOP('',(#165,#166,#167,#168));
#354=EDGE_LOOP('',(#169));
#355=EDGE_LOOP('',(#170));
#356=EDGE_LOOP('',(#171));
#357=EDGE_LOOP('',(#172));
#358=EDGE_LOOP('',(#173));
#359=EDGE_LOOP('',(#174,#175,#176,#177));
#360=EDGE_LOOP('',(#178));
#361=EDGE_LOOP('',(#179,#180,#181,#182));
#362=EDGE_LOOP('',(#183,#184,#185,#186));
#363=EDGE_LOOP('',(#187));
#364=EDGE_LOOP('',(#188));
#365=EDGE_LOOP('',(#189,#190,#191,#192));
#366=EDGE_LOOP('',(#193,#194,#195,#196));
#367=EDGE_LOOP('',(#197,#198,#199,#200));
#368=EDGE_LOOP('',(#201,#202,#203,#204));
#369=FACE_BOUND('',#331,.T.);
#370=FACE_BOUND('',#332,.T.);
#371=FACE_BOUND('',#333,.T.);
#372=FACE_BOUND('',#334,.T.);
#373=FACE_BOUND('',#335,.T.);
#374=FACE_BOUND('',#336,.T.);
#375=FACE_BOUND('',#337,.T.);
#376=FACE_BOUND('',#338,.T.);
#377=FACE_BOUND('',#339,.T.);
#378=FACE_BOUND('',#340,.T.);
#379=FACE_BOUND('',#341,.T.);
#380=FACE_BOUND('',#342,.T.);
#381=FACE_BOUND('',#343,.T.);
#382=FACE_BOUND('',#344,.T.);
#383=FACE_BOUND('',#345,.T.);
#384=FACE_BOUND('',#346,.T.);
#385=FACE_BOUND('',#347,.T.);
#386=FACE_BOUND('',#348,.T.);
#387=FACE_BOUND('',#349,.T.);
#388=FACE_BOUND('',#350,.T.);
#389=FACE_BOUND('',#351,.T.);
#390=FACE_BOUND('',#352,.T.);
#391=FACE_BOUND('',#353,.T.);
#392=FACE_BOUND('',#354,.T.);
#393=FACE_BOUND('',#355,.T.);
#394=FACE_BOUND('',#356,.T.);
#395=FACE_BOUND('',#357,.T.);
#396=FACE_BOUND('',#358,.T.);
#397=FACE_BOUND('',#359,.T.);
#398=FACE_BOUND('',#360,.T.);
#399=FACE_BOUND('',#361,.T.);
#400=FACE_BOUND('',#362,.T.);
#401=FACE_BOUND('',#363,.T.);
#402=FACE_BOUND('',#364,.T.);
#403=FACE_BOUND('',#365,.T.);
#404=FACE_BOUND('',#366,.T.);
#405=FACE_BOUND('',#367,.T.);
#406=FACE_BOUND('',#368,.T.);
#407=PLANE('',#453);
#408=PLANE('',#456);
#409=PLANE('',#459);
#410=PLANE('',#465);
#411=PLANE('',#471);
#412=PLANE('',#482);
#413=PLANE('',#483);
#414=PLANE('',#494);
#415=PLANE('',#495);
#416=PLANE('',#496);
#417=ADVANCED_FACE('',(#369,#370),#407,.F.);
#418=ADVANCED_FACE('',(#371,#372),#408,.F.);
#419=ADVANCED_FACE('',(#373,#374),#409,.T.);
#420=ADVANCED_FACE('',(#375,#376),#410,.F.);
#421=ADVANCED_FACE('',(#377,#378),#411,.F.);
#422=ADVANCED_FACE('',(#379),#12,.T.);
#423=ADVANCED_FACE('',(#380,#381),#13,.F.);
#424=ADVANCED_FACE('',(#382),#14,.T.);
#425=ADVANCED_FACE('',(#383,#384),#15,.F.);
#426=ADVANCED_FACE('',(#385,#386,#387),#412,.T.);
#427=ADVANCED_FACE('',(#388,#389),#413,.F.);
#428=ADVANCED_FACE('',(#390),#16,.T.);
#429=ADVANCED_FACE('',(#391),#17,.T.);
#430=ADVANCED_FACE('',(#392,#393),#18,.F.);
#431=ADVANCED_FACE('',(#394,#395),#19,.F.);
#432=ADVANCED_FACE('',(#396,#397,#398),#414,.T.);
#433=ADVANCED_FACE('',(#399),#415,.F.);
#434=ADVANCED_FACE('',(#400),#416,.T.);
#435=ADVANCED_FACE('',(#401,#402),#20,.F.);
#436=ADVANCED_FACE('',(#403),#21,.F.);
#437=ADVANCED_FACE('',(#404),#22,.F.);
#438=ADVANCED_FACE('',(#405),#23,.F.);
#439=ADVANCED_FACE('',(#406),#24,.F.);
#440=CLOSED_SHELL('',(#417,#418,#419,#420,#421,#422,#423,#424,#425,#426,
#427,#428,#429,#430,#431,#432,#433,#434,#435,#436,#437,#438,#439));
#441=STYLED_ITEM('',(#442),#449);
#442=PRESENTATION_STYLE_ASSIGNMENT((#443));
#443=SURFACE_STYLE_USAGE(.BOTH.,#444);
#444=SURFACE_SIDE_STYLE('',(#445));
#445=SURFACE_STYLE_FILL_AREA(#446);
#446=FILL_AREA_STYLE('',(#447));
#447=FILL_AREA_STYLE_COLOUR('',#448);
#448=COLOUR_RGB('',0.231372549019608,0.380392156862745,0.705882352941177);
#449=MANIFOLD_SOLID_BREP('Part 2',#440);
#450=SHAPE_DEFINITION_REPRESENTATION(#764,#451);
#451=SHAPE_REPRESENTATION('Part 2',(#452),#759);
#452=AXIS2_PLACEMENT_3D('',#634,#502,#503);
#453=AXIS2_PLACEMENT_3D('',#635,#504,#505);
#454=AXIS2_PLACEMENT_3D('',#636,#506,#507);
#455=AXIS2_PLACEMENT_3D('',#645,#511,#512);
#456=AXIS2_PLACEMENT_3D('',#646,#513,#514);
#457=AXIS2_PLACEMENT_3D('',#647,#515,#516);
#458=AXIS2_PLACEMENT_3D('',#656,#520,#521);
#459=AXIS2_PLACEMENT_3D('',#657,#522,#523);
#460=AXIS2_PLACEMENT_3D('',#658,#524,#525);
#461=AXIS2_PLACEMENT_3D('',#663,#527,#528);
#462=AXIS2_PLACEMENT_3D('',#672,#533,#534);
#463=AXIS2_PLACEMENT_3D('',#676,#536,#537);
#464=AXIS2_PLACEMENT_3D('',#685,#542,#543);
#465=AXIS2_PLACEMENT_3D('',#686,#544,#545);
#466=AXIS2_PLACEMENT_3D('',#687,#546,#547);
#467=AXIS2_PLACEMENT_3D('',#692,#549,#550);
#468=AXIS2_PLACEMENT_3D('',#696,#552,#553);
#469=AXIS2_PLACEMENT_3D('',#705,#558,#559);
#470=AXIS2_PLACEMENT_3D('',#709,#561,#562);
#471=AXIS2_PLACEMENT_3D('',#715,#566,#567);
#472=AXIS2_PLACEMENT_3D('',#716,#568,#569);
#473=AXIS2_PLACEMENT_3D('',#719,#571,#572);
#474=AXIS2_PLACEMENT_3D('',#720,#573,#574);
#475=AXIS2_PLACEMENT_3D('',#721,#575,#576);
#476=AXIS2_PLACEMENT_3D('',#722,#577,#578);
#477=AXIS2_PLACEMENT_3D('',#723,#579,#580);
#478=AXIS2_PLACEMENT_3D('',#725,#581,#582);
#479=AXIS2_PLACEMENT_3D('',#726,#583,#584);
#480=AXIS2_PLACEMENT_3D('',#727,#585,#586);
#481=AXIS2_PLACEMENT_3D('',#728,#587,#588);
#482=AXIS2_PLACEMENT_3D('',#730,#589,#590);
#483=AXIS2_PLACEMENT_3D('',#731,#591,#592);
#484=AXIS2_PLACEMENT_3D('',#732,#593,#594);
#485=AXIS2_PLACEMENT_3D('',#735,#596,#597);
#486=AXIS2_PLACEMENT_3D('',#736,#598,#599);
#487=AXIS2_PLACEMENT_3D('',#737,#600,#601);
#488=AXIS2_PLACEMENT_3D('',#738,#602,#603);
#489=AXIS2_PLACEMENT_3D('',#739,#604,#605);
#490=AXIS2_PLACEMENT_3D('',#740,#606,#607);
#491=AXIS2_PLACEMENT_3D('',#741,#608,#609);
#492=AXIS2_PLACEMENT_3D('',#743,#610,#611);
#493=AXIS2_PLACEMENT_3D('',#744,#612,#613);
#494=AXIS2_PLACEMENT_3D('',#746,#614,#615);
#495=AXIS2_PLACEMENT_3D('',#747,#616,#617);
#496=AXIS2_PLACEMENT_3D('',#750,#620,#621);
#497=AXIS2_PLACEMENT_3D('',#753,#624,#625);
#498=AXIS2_PLACEMENT_3D('',#754,#626,#627);
#499=AXIS2_PLACEMENT_3D('',#755,#628,#629);
#500=AXIS2_PLACEMENT_3D('',#756,#630,#631);
#501=AXIS2_PLACEMENT_3D('',#757,#632,#633);
#502=DIRECTION('',(0.,0.,1.));
#503=DIRECTION('',(1.,0.,0.));
#504=DIRECTION('',(0.,0.,1.));
#505=DIRECTION('',(1.,0.,0.));
#506=DIRECTION('',(0.,0.,1.));
#507=DIRECTION('',(1.,0.,0.));
#508=DIRECTION('',(-1.,0.,0.));
#509=DIRECTION('',(0.,-1.,0.));
#510=DIRECTION('',(-1.,0.,0.));
#511=DIRECTION('',(0.,0.,-1.));
#512=DIRECTION('',(1.,0.,0.));
#513=DIRECTION('',(0.,0.,-1.));
#514=DIRECTION('',(1.,0.,0.));
#515=DIRECTION('',(0.,0.,-1.));
#516=DIRECTION('',(-1.,0.,0.));
#517=DIRECTION('',(-1.,0.,0.));
#518=DIRECTION('',(0.,-1.,0.));
#519=DIRECTION('',(1.,0.,0.));
#520=DIRECTION('',(0.,0.,-1.));
#521=DIRECTION('',(-1.,0.,0.));
#522=DIRECTION('',(0.,1.,0.));
#523=DIRECTION('',(-1.,0.,0.));
#524=DIRECTION('',(0.,1.,0.));
#525=DIRECTION('',(0.,0.,1.));
#526=DIRECTION('',(0.,0.,1.));
#527=DIRECTION('',(0.,1.,0.));
#528=DIRECTION('',(0.,0.,1.));
#529=DIRECTION('',(1.,0.,0.));
#530=DIRECTION('',(0.,0.,1.));
#531=DIRECTION('',(1.,0.,0.));
#532=DIRECTION('',(0.,0.,1.));
#533=DIRECTION('',(0.,1.,0.));
#534=DIRECTION('',(0.,0.,1.));
#535=DIRECTION('',(0.,0.,1.));
#536=DIRECTION('',(0.,1.,0.));
#537=DIRECTION('',(0.,0.,1.));
#538=DIRECTION('',(-1.,0.,0.));
#539=DIRECTION('',(0.,0.,-1.));
#540=DIRECTION('',(-1.,0.,0.));
#541=DIRECTION('',(0.,0.,-1.));
#542=DIRECTION('',(0.,1.,0.));
#543=DIRECTION('',(0.,0.,1.));
#544=DIRECTION('',(0.,1.,0.));
#545=DIRECTION('',(-1.,0.,0.));
#546=DIRECTION('',(0.,-1.,0.));
#547=DIRECTION('',(0.,0.,-1.));
#548=DIRECTION('',(-1.,0.,0.));
#549=DIRECTION('',(0.,1.,0.));
#550=DIRECTION('',(0.,0.,1.));
#551=DIRECTION('',(0.,0.,1.));
#552=DIRECTION('',(0.,1.,0.));
#553=DIRECTION('',(0.,0.,1.));
#554=DIRECTION('',(0.,0.,1.));
#555=DIRECTION('',(-1.,0.,0.));
#556=DIRECTION('',(0.,0.,1.));
#557=DIRECTION('',(-1.,0.,0.));
#558=DIRECTION('',(0.,1.,0.));
#559=DIRECTION('',(0.,0.,1.));
#560=DIRECTION('',(0.,0.,1.));
#561=DIRECTION('',(0.,1.,0.));
#562=DIRECTION('',(0.,0.,1.));
#563=DIRECTION('',(0.,0.,-1.));
#564=DIRECTION('',(-1.,0.,0.));
#565=DIRECTION('',(0.,0.,-1.));
#566=DIRECTION('',(0.,0.,1.));
#567=DIRECTION('',(1.,0.,0.));
#568=DIRECTION('',(0.,0.,1.));
#569=DIRECTION('',(1.,0.,0.));
#570=DIRECTION('',(0.,-1.,0.));
#571=DIRECTION('',(0.,0.,-1.));
#572=DIRECTION('',(1.,0.,0.));
#573=DIRECTION('',(0.,0.,-1.));
#574=DIRECTION('',(-1.,0.,0.));
#575=DIRECTION('',(0.,0.,-1.));
#576=DIRECTION('',(1.,0.,0.));
#577=DIRECTION('',(0.,0.,-1.));
#578=DIRECTION('',(-1.,0.,0.));
#579=DIRECTION('',(0.,0.,1.));
#580=DIRECTION('',(1.,0.,0.));
#581=DIRECTION('',(0.,0.,-1.));
#582=DIRECTION('',(-1.,0.,0.));
#583=DIRECTION('',(0.,0.,-1.));
#584=DIRECTION('',(1.,0.,0.));
#585=DIRECTION('',(0.,0.,-1.));
#586=DIRECTION('',(-1.,0.,0.));
#587=DIRECTION('',(0.,0.,1.));
#588=DIRECTION('',(1.,0.,0.));
#589=DIRECTION('',(0.,0.,1.));
#590=DIRECTION('',(1.,0.,0.));
#591=DIRECTION('',(0.,0.,-1.));
#592=DIRECTION('',(1.,0.,0.));
#593=DIRECTION('',(0.,0.,-1.));
#594=DIRECTION('',(-1.,0.,0.));
#595=DIRECTION('',(0.,-1.,0.));
#596=DIRECTION('',(0.,0.,-1.));
#597=DIRECTION('',(-1.,0.,0.));
#598=DIRECTION('',(0.,0.,1.));
#599=DIRECTION('',(1.,0.,0.));
#600=DIRECTION('',(0.,0.,-1.));
#601=DIRECTION('',(-1.,0.,0.));
#602=DIRECTION('',(0.,0.,1.));
#603=DIRECTION('',(1.,0.,0.));
#604=DIRECTION('',(0.,0.,-1.));
#605=DIRECTION('',(-1.,0.,0.));
#606=DIRECTION('',(0.,0.,1.));
#607=DIRECTION('',(1.,0.,0.));
#608=DIRECTION('',(0.,0.,-1.));
#609=DIRECTION('',(-1.,0.,0.));
#610=DIRECTION('',(0.,0.,1.));
#611=DIRECTION('',(1.,0.,0.));
#612=DIRECTION('',(0.,0.,-1.));
#613=DIRECTION('',(-1.,0.,0.));
#614=DIRECTION('',(0.,0.,-1.));
#615=DIRECTION('',(1.,0.,0.));
#616=DIRECTION('',(1.,0.,0.));
#617=DIRECTION('',(0.,0.,-1.));
#618=DIRECTION('',(0.,-1.,0.));
#619=DIRECTION('',(0.,-1.,0.));
#620=DIRECTION('',(1.,0.,0.));
#621=DIRECTION('',(0.,0.,-1.));
#622=DIRECTION('',(0.,-1.,0.));
#623=DIRECTION('',(0.,-1.,0.));
#624=DIRECTION('',(0.,-1.,0.));
#625=DIRECTION('',(0.,0.,-1.));
#626=DIRECTION('',(0.,-1.,0.));
#627=DIRECTION('',(0.,0.,-1.));
#628=DIRECTION('',(0.,-1.,0.));
#629=DIRECTION('',(0.,0.,-1.));
#630=DIRECTION('',(0.,1.,0.));
#631=DIRECTION('',(0.,0.,1.));
#632=DIRECTION('',(0.,1.,0.));
#633=DIRECTION('',(0.,0.,1.));
#634=CARTESIAN_POINT('',(0.,0.,0.));
#635=CARTESIAN_POINT('',(-0.026,0.292,0.0235));
#636=CARTESIAN_POINT('',(-0.001,0.292,0.0235));
#637=CARTESIAN_POINT('',(0.0015,0.292,0.0235));
#638=CARTESIAN_POINT('',(-0.0385,0.285,0.0235));
#639=CARTESIAN_POINT('',(-0.001,0.285,0.0235));
#640=CARTESIAN_POINT('',(-0.0175,0.285,0.0235));
#641=CARTESIAN_POINT('',(-0.0175,0.292,0.0235));
#642=CARTESIAN_POINT('',(-0.0175,0.299,0.0235));
#643=CARTESIAN_POINT('',(-0.0385,0.299,0.0235));
#644=CARTESIAN_POINT('',(-0.001,0.299,0.0235));
#645=CARTESIAN_POINT('',(-0.001,0.292,0.0235));
#646=CARTESIAN_POINT('',(-0.026,0.292,0.0165));
#647=CARTESIAN_POINT('',(-0.051,0.292,0.0165));
#648=CARTESIAN_POINT('',(-0.0535,0.292,0.0165));
#649=CARTESIAN_POINT('',(-0.041,0.285,0.0165));
#650=CARTESIAN_POINT('',(-0.0345,0.285,0.0165));
#651=CARTESIAN_POINT('',(-0.051,0.285,0.0165));
#652=CARTESIAN_POINT('',(-0.0345,0.299,0.0165));
#653=CARTESIAN_POINT('',(-0.0345,0.299,0.0165));
#654=CARTESIAN_POINT('',(-0.041,0.299,0.0165));
#655=CARTESIAN_POINT('',(-0.051,0.299,0.0165));
#656=CARTESIAN_POINT('',(-0.051,0.292,0.0165));
#657=CARTESIAN_POINT('',(-0.026,0.299,0.02));
#658=CARTESIAN_POINT('',(-0.026,0.299,0.0195));
#659=CARTESIAN_POINT('',(-0.026,0.299,0.02335));
#660=CARTESIAN_POINT('',(-0.0195,0.299,0.02));
#661=CARTESIAN_POINT('',(-0.0195,0.299,0.0185));
#662=CARTESIAN_POINT('',(-0.0195,0.299,0.0215));
#663=CARTESIAN_POINT('',(-0.0175,0.299,0.0185));
#664=CARTESIAN_POINT('',(-0.0175,0.299,0.0165));
#665=CARTESIAN_POINT('',(-0.041,0.299,0.0165));
#666=CARTESIAN_POINT('',(-0.001,0.299,0.0165));
#667=CARTESIAN_POINT('',(-0.001,0.299,0.0125));
#668=CARTESIAN_POINT('',(-0.001,0.299,0.0125));
#669=CARTESIAN_POINT('',(-0.041,0.299,0.0125));
#670=CARTESIAN_POINT('',(-0.051,0.299,0.0125));
#671=CARTESIAN_POINT('',(-0.051,0.299,0.0125));
#672=CARTESIAN_POINT('',(-0.0345,0.299,0.0185));
#673=CARTESIAN_POINT('',(-0.0325,0.299,0.0185));
#674=CARTESIAN_POINT('',(-0.0325,0.299,0.02));
#675=CARTESIAN_POINT('',(-0.0325,0.299,0.0215));
#676=CARTESIAN_POINT('',(-0.0345,0.299,0.0215));
#677=CARTESIAN_POINT('',(-0.0345,0.299,0.0235));
#678=CARTESIAN_POINT('',(-0.0385,0.299,0.0235));
#679=CARTESIAN_POINT('',(-0.051,0.299,0.0235));
#680=CARTESIAN_POINT('',(-0.051,0.299,0.0265));
#681=CARTESIAN_POINT('',(-0.051,0.299,0.0265));
#682=CARTESIAN_POINT('',(-0.0385,0.299,0.0265));
#683=CARTESIAN_POINT('',(-0.001,0.299,0.0265));
#684=CARTESIAN_POINT('',(-0.001,0.299,0.0265));
#685=CARTESIAN_POINT('',(-0.0175,0.299,0.0215));
#686=CARTESIAN_POINT('',(-0.026,0.285,0.02));
#687=CARTESIAN_POINT('',(-0.026,0.285,0.0195));
#688=CARTESIAN_POINT('',(-0.026,0.285,0.01565));
#689=CARTESIAN_POINT('',(-0.0385,0.285,0.0235));
#690=CARTESIAN_POINT('',(-0.0345,0.285,0.0235));
#691=CARTESIAN_POINT('',(-0.051,0.285,0.0235));
#692=CARTESIAN_POINT('',(-0.0345,0.285,0.0215));
#693=CARTESIAN_POINT('',(-0.0325,0.285,0.0215));
#694=CARTESIAN_POINT('',(-0.0325,0.285,0.02));
#695=CARTESIAN_POINT('',(-0.0325,0.285,0.0185));
#696=CARTESIAN_POINT('',(-0.0345,0.285,0.0185));
#697=CARTESIAN_POINT('',(-0.051,0.285,0.0125));
#698=CARTESIAN_POINT('',(-0.051,0.285,0.0125));
#699=CARTESIAN_POINT('',(-0.041,0.285,0.0125));
#700=CARTESIAN_POINT('',(-0.001,0.285,0.0125));
#701=CARTESIAN_POINT('',(-0.001,0.285,0.0125));
#702=CARTESIAN_POINT('',(-0.001,0.285,0.0165));
#703=CARTESIAN_POINT('',(-0.041,0.285,0.0165));
#704=CARTESIAN_POINT('',(-0.0175,0.285,0.0165));
#705=CARTESIAN_POINT('',(-0.0175,0.285,0.0185));
#706=CARTESIAN_POINT('',(-0.0195,0.285,0.0185));
#707=CARTESIAN_POINT('',(-0.0195,0.285,0.02));
#708=CARTESIAN_POINT('',(-0.0195,0.285,0.0215));
#709=CARTESIAN_POINT('',(-0.0175,0.285,0.0215));
#710=CARTESIAN_POINT('',(-0.001,0.285,0.0265));
#711=CARTESIAN_POINT('',(-0.001,0.285,0.0265));
#712=CARTESIAN_POINT('',(-0.0385,0.285,0.0265));
#713=CARTESIAN_POINT('',(-0.051,0.285,0.0265));
#714=CARTESIAN_POINT('',(-0.051,0.285,0.0265));
#715=CARTESIAN_POINT('',(-0.026,0.292,0.0235));
#716=CARTESIAN_POINT('',(-0.051,0.292,0.0235));
#717=CARTESIAN_POINT('',(-0.0485,0.292,0.0235));
#718=CARTESIAN_POINT('',(-0.0345,0.285,0.0235));
#719=CARTESIAN_POINT('',(-0.051,0.292,0.0235));
#720=CARTESIAN_POINT('',(-0.001,0.292,0.0265));
#721=CARTESIAN_POINT('',(-0.001,0.292,0.0265));
#722=CARTESIAN_POINT('',(-0.051,0.292,0.0265));
#723=CARTESIAN_POINT('',(-0.051,0.292,0.0265));
#724=CARTESIAN_POINT('',(-0.0485,0.292,0.0265));
#725=CARTESIAN_POINT('',(-0.051,0.292,0.0265));
#726=CARTESIAN_POINT('',(-0.051,0.292,0.0265));
#727=CARTESIAN_POINT('',(-0.001,0.292,0.0265));
#728=CARTESIAN_POINT('',(-0.001,0.292,0.0265));
#729=CARTESIAN_POINT('',(0.0015,0.292,0.0265));
#730=CARTESIAN_POINT('',(-0.026,0.292,0.0265));
#731=CARTESIAN_POINT('',(-0.026,0.292,0.0165));
#732=CARTESIAN_POINT('',(-0.001,0.292,0.0165));
#733=CARTESIAN_POINT('',(-0.0035,0.292,0.0165));
#734=CARTESIAN_POINT('',(-0.0175,0.292,0.0165));
#735=CARTESIAN_POINT('',(-0.001,0.292,0.0165));
#736=CARTESIAN_POINT('',(-0.051,0.292,0.0125));
#737=CARTESIAN_POINT('',(-0.051,0.292,0.0125));
#738=CARTESIAN_POINT('',(-0.001,0.292,0.0125));
#739=CARTESIAN_POINT('',(-0.001,0.292,0.0125));
#740=CARTESIAN_POINT('',(-0.051,0.292,0.0125));
#741=CARTESIAN_POINT('',(-0.051,0.292,0.0125));
#742=CARTESIAN_POINT('',(-0.0535,0.292,0.0125));
#743=CARTESIAN_POINT('',(-0.001,0.292,0.0125));
#744=CARTESIAN_POINT('',(-0.001,0.292,0.0125));
#745=CARTESIAN_POINT('',(-0.0035,0.292,0.0125));
#746=CARTESIAN_POINT('',(-0.026,0.292,0.0125));
#747=CARTESIAN_POINT('',(-0.0325,0.299,0.02));
#748=CARTESIAN_POINT('',(-0.0325,0.299,0.0215));
#749=CARTESIAN_POINT('',(-0.0325,0.285,0.0185));
#750=CARTESIAN_POINT('',(-0.0195,0.299,0.02));
#751=CARTESIAN_POINT('',(-0.0195,0.299,0.0215));
#752=CARTESIAN_POINT('',(-0.0195,0.299,0.0185));
#753=CARTESIAN_POINT('',(-0.026,0.31,0.0195));
#754=CARTESIAN_POINT('',(-0.0175,0.299,0.0215));
#755=CARTESIAN_POINT('',(-0.0175,0.292,0.0185));
#756=CARTESIAN_POINT('',(-0.0345,0.292,0.0215));
#757=CARTESIAN_POINT('',(-0.0345,0.299,0.0185));
#758=MECHANICAL_DESIGN_GEOMETRIC_PRESENTATION_REPRESENTATION('',(#441),
#759);
#759=(
GEOMETRIC_REPRESENTATION_CONTEXT(3)
GLOBAL_UNCERTAINTY_ASSIGNED_CONTEXT((#760))
GLOBAL_UNIT_ASSIGNED_CONTEXT((#763,#762,#761))
REPRESENTATION_CONTEXT('Part 2','TOP_LEVEL_ASSEMBLY_PART')
);
#760=UNCERTAINTY_MEASURE_WITH_UNIT(LENGTH_MEASURE(1.E-8),#763,
'DISTANCE_ACCURACY_VALUE','Maximum Tolerance applied to model');
#761=(
NAMED_UNIT(*)
SI_UNIT($,.STERADIAN.)
SOLID_ANGLE_UNIT()
);
#762=(
NAMED_UNIT(*)
PLANE_ANGLE_UNIT()
SI_UNIT($,.RADIAN.)
);
#763=(
LENGTH_UNIT()
NAMED_UNIT(*)
SI_UNIT($,.METRE.)
);
#764=PRODUCT_DEFINITION_SHAPE('','',#765);
#765=PRODUCT_DEFINITION('','',#767,#766);
#766=PRODUCT_DEFINITION_CONTEXT('',#773,'design');
#767=PRODUCT_DEFINITION_FORMATION_WITH_SPECIFIED_SOURCE('','',#769,
 .NOT_KNOWN.);
#768=PRODUCT_RELATED_PRODUCT_CATEGORY('','',(#769));
#769=PRODUCT('Part 2','Part 2','Part 2',(#771));
#770=PRODUCT_CATEGORY('','');
#771=PRODUCT_CONTEXT('',#773,'mechanical');
#772=APPLICATION_PROTOCOL_DEFINITION('international standard',
'ap242_managed_model_based_3d_engineering',2011,#773);
#773=APPLICATION_CONTEXT('managed model based 3d engineering');
ENDSEC;
END-ISO-10303-21;
